W&Whale: Whale Song

W&Whale 앨범에 수록된 잔잔한 기타 선율의 노래~ 유명한 타이틀 곡보다 이런 노래가 더 좋다.

어린날 포근한 엄마의 멜로디
언제나 품 속에 담아두고 싶어
까맣게 깊은 밤 하얗게 피어있는
별에게 얘기했지 수없이 많은 바램
언제나 꿈꾸는 길에 서있는 내가 좋아
바보같아 보여도 웃는 모습 참 좋아
상처받고 여린 마음이지만 용서하고
사랑만 하고 싶어
라디오헤드의 음악을 느끼며
이슬이 스며든 런던을 꿈꾸지
기타를 튕기는 내 손이 너무 좋아
굳은 살 투성이지 나는 락앤롤 스타
언제나 꿈꾸는 길에 서있는 내가 좋아
바보같아 보여도 웃는 모습 참 좋아
상처 받고 여린 마음이지만 용서하고
사랑만 하고 싶어
어쩌면 다시 흘러간 시간 속에서 힘이든지도
이제는 내게 감미로운 멜로디 그 속에 힘을 싣고
언제나 꿈꾸는 길에 서있는 내가 좋아
바보같아 보여도 웃는 모습 참 좋아
상처받고 여린 마음이지만 용서하고
사랑만 하고 싶어

[audio:11 Whale Song.mp3]
내맘대로 따본 타브
E|---------------|---------------|---------------|3--------------|
A|---------------|0--------------|3--------------|---------------|
D|0--------------|--2------------|--2------------|---------------|
G|--2------------|---------------|-----0------0--|--0------------|
B|---------------|-----0/1-------|-----3------3--|----3/5--------|
E|----2/3\2------|----------3----|---------------|----------3----|
E|---------------|---------------|---------------|3--------------|
A|---------------|0--------------|3--------------|---------------|
D|0--------------|---------------|--2------------|---------------|
G|--2------------|-----2---------|-----0------0--|--0------------|
B|---------------|0/1----------1-|-----3------3--|----3/5--------|
E|----2/3\2------|----------0----|---------------|----------3----|

Similar Posts:

    None Found

Facebooktwitterlinkedinmail

2 thoughts on “W&Whale: Whale Song”

Leave a Reply

Your email address will not be published. Required fields are marked *